ISO-10303-21;
HEADER;
FILE_DESCRIPTION (( 'STEP AP203' ),
    '1' );
FILE_NAME ('BK7-LPBSC-12.7-980.STEP',
    '2020-12-22T03:12:28',
    ( '' ),
    ( '' ),
    'SwSTEP 2.0',
    'SolidWorks 2020',
    '' );
FILE_SCHEMA (( 'CONFIG_CONTROL_DESIGN' ));
ENDSEC;

DATA;
#1 = DIRECTION ( 'NONE',  ( 0.7071067811865474617, 0.7071067811865474617, 0.000000000000000000 ) ) ;
#2 = EDGE_CURVE ( 'NONE', #163, #292, #60, .T. ) ;
#3 = LINE ( 'NONE', #138, #38 ) ;
#4 = AXIS2_PLACEMENT_3D ( 'NONE', #132, #186, #1 ) ;
#5 = COORDINATED_UNIVERSAL_TIME_OFFSET ( 8, 0, .AHEAD. ) ;
#6 = APPROVAL_ROLE ( '' ) ;
#7 = CALENDAR_DATE ( 2020, 22, 12 ) ;
#8 = APPROVAL_PERSON_ORGANIZATION ( #211, #260, #155 ) ;
#9 = DIRECTION ( 'NONE',  ( 0.000000000000000000, 0.000000000000000000, -1.000000000000000000 ) ) ;
#10 = DIRECTION ( 'NONE',  ( 0.000000000000000000, 0.000000000000000000, -1.000000000000000000 ) ) ;
#11 = DIRECTION ( 'NONE',  ( -0.000000000000000000, -0.000000000000000000, -1.000000000000000000 ) ) ;
#12 = EDGE_CURVE ( 'NONE', #125, #127, #190, .T. ) ;
#13 = DIRECTION ( 'NONE',  ( -6.829619984160658046E-17, 1.000000000000000000, -0.000000000000000000 ) ) ;
#14 = EDGE_LOOP ( 'NONE', ( #203, #131, #266, #319 ) ) ;
#15 = DIRECTION ( 'NONE',  ( -2.220446049250312588E-16, 1.000000000000000000, 0.000000000000000000 ) ) ;
#16 = ORIENTED_EDGE ( 'NONE', *, *, #2, .T. ) ;
#17 = CARTESIAN_POINT ( 'NONE',  ( 6.349999999999996980, 6.349999999999996980, 6.349999999999999645 ) ) ;
#18 = VERTEX_POINT ( 'NONE', #82 ) ;
#19 = DIRECTION ( 'NONE',  ( -2.220446049250312588E-16, 1.000000000000000000, 0.000000000000000000 ) ) ;
#20 = ORIENTED_EDGE ( 'NONE', *, *, #35, .T. ) ;
#21 = EDGE_LOOP ( 'NONE', ( #16, #183, #176 ) ) ;
#22 = CARTESIAN_POINT ( 'NONE',  ( 0.000000000000000000, 0.000000000000000000, 0.000000000000000000 ) ) ;
#23 = CARTESIAN_POINT ( 'NONE',  ( -6.349999999999999645, -6.350000000000000533, 6.349999999999999645 ) ) ;
#24 = VECTOR ( 'NONE', #10, 1000.000000000000000 ) ;
#25 = EDGE_CURVE ( 'NONE', #127, #160, #26, .T. ) ;
#26 = LINE ( 'NONE', #134, #224 ) ;
#27 =( GEOMETRIC_REPRESENTATION_CONTEXT ( 3 ) GLOBAL_UNCERTAINTY_ASSIGNED_CONTEXT ( ( #112 ) ) GLOBAL_UNIT_ASSIGNED_CONTEXT ( ( #159, #212, #161 ) ) REPRESENTATION_CONTEXT ( 'NONE', 'WORKASPACE' ) );
#28 = PLANE ( 'NONE',  #239 ) ;
#29 = CARTESIAN_POINT ( 'NONE',  ( -6.349999999999999645, -6.350000000000000533, 6.349999999999999645 ) ) ;
#30 = DATE_AND_TIME ( #135, #75 ) ;
#31 = CARTESIAN_POINT ( 'NONE',  ( 0.000000000000000000, 0.000000000000000000, -6.349999999999999645 ) ) ;
#32 = APPROVAL_DATE_TIME ( #119, #61 ) ;
#33 = ADVANCED_BREP_SHAPE_REPRESENTATION ( 'BK7-LPBSC-12.7-980', ( #170, #174, #275 ), #27 ) ;
#34 = CARTESIAN_POINT ( 'NONE',  ( -6.349999999999998757, -6.349999999999997868, 6.349999999999999645 ) ) ;
#35 = EDGE_CURVE ( 'NONE', #80, #229, #237, .T. ) ;
#36 = DIRECTION ( 'NONE',  ( 1.000000000000000000, 0.000000000000000000, 0.000000000000000000 ) ) ;
#37 = ADVANCED_FACE ( 'NONE', ( #165 ), #28, .F. ) ;
#38 = VECTOR ( 'NONE', #217, 999.9999999999998863 ) ;
#39 = CC_DESIGN_PERSON_AND_ORGANIZATION_ASSIGNMENT ( #86, #62, ( #88 ) ) ;
#40 = EDGE_LOOP ( 'NONE', ( #185, #234, #254, #270 ) ) ;
#41 = CARTESIAN_POINT ( 'NONE',  ( 0.000000000000000000, 0.000000000000000000, 6.349999999999999645 ) ) ;
#42 = LOCAL_TIME ( 11, 12, 28.00000000000000000, #5 ) ;
#43 = ORIENTED_EDGE ( 'NONE', *, *, #250, .T. ) ;
#44 = FACE_OUTER_BOUND ( 'NONE', #255, .T. ) ;
#45 = ORIENTED_EDGE ( 'NONE', *, *, #123, .F. ) ;
#46 = DATE_AND_TIME ( #228, #69 ) ;
#47 = DIRECTION ( 'NONE',  ( -6.829619984160658046E-17, 1.000000000000000000, -0.000000000000000000 ) ) ;
#48 = ORIENTED_EDGE ( 'NONE', *, *, #279, .F. ) ;
#49 = MECHANICAL_CONTEXT ( 'NONE', #288, 'mechanical' ) ;
#50 = APPROVAL_PERSON_ORGANIZATION ( #311, #143, #148 ) ;
#51 = EDGE_CURVE ( 'NONE', #80, #160, #52, .T. ) ;
#52 = LINE ( 'NONE', #298, #121 ) ;
#53 = ORIENTED_EDGE ( 'NONE', *, *, #168, .T. ) ;
#54 = VECTOR ( 'NONE', #19, 1000.000000000000000 ) ;
#55 = AXIS2_PLACEMENT_3D ( 'NONE', #34, #122, #178 ) ;
#56 = VECTOR ( 'NONE', #264, 1000.000000000000000 ) ;
#57 = CARTESIAN_POINT ( 'NONE',  ( -6.349999999999999645, -6.350000000000000533, -6.349999999999999645 ) ) ;
#58 = ORGANIZATION ( 'UNSPECIFIED', 'UNSPECIFIED', '' ) ;
#59 = PERSON_AND_ORGANIZATION ( #95, #58 ) ;
#60 = LINE ( 'NONE', #258, #137 ) ;
#61 = APPROVAL ( #141, 'UNSPECIFIED' ) ;
#62 = PERSON_AND_ORGANIZATION_ROLE ( 'classification_officer' ) ;
#63 = PLANE ( 'NONE',  #253 ) ;
#64 = CARTESIAN_POINT ( 'NONE',  ( 6.349999999999999645, -6.350000000000000533, 6.349999999999999645 ) ) ;
#65 = LINE ( 'NONE', #156, #226 ) ;
#66 = VECTOR ( 'NONE', #11, 1000.000000000000000 ) ;
#67 = AXIS2_PLACEMENT_3D ( 'NONE', #31, #223, #304 ) ;
#68 = COORDINATED_UNIVERSAL_TIME_OFFSET ( 8, 0, .AHEAD. ) ;
#69 = LOCAL_TIME ( 11, 12, 28.00000000000000000, #246 ) ;
#70 = ORIENTED_EDGE ( 'NONE', *, *, #168, .F. ) ;
#71 = FACE_OUTER_BOUND ( 'NONE', #76, .T. ) ;
#72 = EDGE_LOOP ( 'NONE', ( #179, #273, #213, #43 ) ) ;
#73 = PRODUCT ( 'BK7-LPBSC-12.7-980', 'BK7-LPBSC-12.7-980', '', ( #49 ) ) ;
#74 = LINE ( 'NONE', #144, #204 ) ;
#75 = LOCAL_TIME ( 11, 12, 28.00000000000000000, #301 ) ;
#76 = EDGE_LOOP ( 'NONE', ( #45, #103, #129 ) ) ;
#77 = DIRECTION ( 'NONE',  ( 1.000000000000000000, 0.000000000000000000, 0.000000000000000000 ) ) ;
#78 = ORIENTED_EDGE ( 'NONE', *, *, #51, .F. ) ;
#79 = VECTOR ( 'NONE', #295, 1000.000000000000114 ) ;
#80 = VERTEX_POINT ( 'NONE', #29 ) ;
#81 = CC_DESIGN_SECURITY_CLASSIFICATION ( #88, ( #150 ) ) ;
#82 = CARTESIAN_POINT ( 'NONE',  ( 6.349999999999996980, 6.349999999999996980, 6.349999999999999645 ) ) ;
#83 = CC_DESIGN_DATE_AND_TIME_ASSIGNMENT ( #46, #106, ( #287 ) ) ;
#84 = DIRECTION ( 'NONE',  ( 1.000000000000000000, 0.000000000000000000, 0.000000000000000000 ) ) ;
#85 = LINE ( 'NONE', #57, #310 ) ;
#86 = PERSON_AND_ORGANIZATION ( #95, #58 ) ;
#87 = CARTESIAN_POINT ( 'NONE',  ( 6.349999999999998757, 6.349999999999998757, 6.349999999999999645 ) ) ;
#88 = SECURITY_CLASSIFICATION ( '', '', #115 ) ;
#89 = DATE_TIME_ROLE ( 'classification_date' ) ;
#90 = CLOSED_SHELL ( 'NONE', ( #162, #199, #282, #184, #227 ) ) ;
#91 = AXIS2_PLACEMENT_3D ( 'NONE', #41, #283, #36 ) ;
#92 = CARTESIAN_POINT ( 'NONE',  ( 6.349999999999996980, 6.349999999999996980, 6.349999999999999645 ) ) ;
#93 = CARTESIAN_POINT ( 'NONE',  ( -6.349999999999999645, -6.350000000000000533, -6.349999999999999645 ) ) ;
#94 = VECTOR ( 'NONE', #238, 1000.000000000000000 ) ;
#95 = PERSON ( 'UNSPECIFIED', 'UNSPECIFIED', 'UNSPECIFIED', ('UNSPECIFIED'), ('UNSPECIFIED'), ('UNSPECIFIED') ) ;
#96 = APPROVAL_DATE_TIME ( #147, #143 ) ;
#97 = ORIENTED_EDGE ( 'NONE', *, *, #12, .F. ) ;
#98 = PERSON_AND_ORGANIZATION_ROLE ( 'creator' ) ;
#99 = AXIS2_PLACEMENT_3D ( 'NONE', #17, #107, #272 ) ;
#100 = VERTEX_POINT ( 'NONE', #164 ) ;
#101 = PLANE ( 'NONE',  #4 ) ;
#102 = EDGE_CURVE ( 'NONE', #160, #100, #85, .T. ) ;
#103 = ORIENTED_EDGE ( 'NONE', *, *, #188, .F. ) ;
#104 = CARTESIAN_POINT ( 'NONE',  ( -6.349999999999998757, -6.349999999999997868, -6.349999999999999645 ) ) ;
#105 = VERTEX_POINT ( 'NONE', #114 ) ;
#106 = DATE_TIME_ROLE ( 'creation_date' ) ;
#107 = DIRECTION ( 'NONE',  ( -2.903408047666378392E-16, -1.000000000000000000, 0.000000000000000000 ) ) ;
#108 = EDGE_LOOP ( 'NONE', ( #249, #97, #70, #233 ) ) ;
#109 = ADVANCED_FACE ( 'NONE', ( #257 ), #280, .F. ) ;
#110 = DIRECTION ( 'NONE',  ( -1.000000000000000000, -6.829619984160658046E-17, 0.000000000000000000 ) ) ;
#111 = DIRECTION ( 'NONE',  ( 1.000000000000000000, 0.000000000000000000, 0.000000000000000000 ) ) ;
#112 = UNCERTAINTY_MEASURE_WITH_UNIT (LENGTH_MEASURE( 1.000000000000000082E-05 ), #159, 'distance_accuracy_value', 'NONE');
#113 = VECTOR ( 'NONE', #111, 1000.000000000000000 ) ;
#114 = CARTESIAN_POINT ( 'NONE',  ( -6.350000000000002309, 6.350000000000001421, -6.349999999999999645 ) ) ;
#115 = SECURITY_CLASSIFICATION_LEVEL ( 'unclassified' ) ;
#116 = PERSON_AND_ORGANIZATION_ROLE ( 'design_supplier' ) ;
#117 = LINE ( 'NONE', #145, #24 ) ;
#118 = EDGE_CURVE ( 'NONE', #210, #105, #189, .T. ) ;
#119 = DATE_AND_TIME ( #193, #191 ) ;
#120 = DIRECTION ( 'NONE',  ( 0.000000000000000000, 0.000000000000000000, 1.000000000000000000 ) ) ;
#121 = VECTOR ( 'NONE', #297, 1000.000000000000000 ) ;
#122 = DIRECTION ( 'NONE',  ( 1.000000000000000000, -2.220446049250312588E-16, 0.000000000000000000 ) ) ;
#123 = EDGE_CURVE ( 'NONE', #18, #316, #3, .T. ) ;
#124 = PRODUCT_DEFINITION_SHAPE ( 'NONE', 'NONE',  #287 ) ;
#125 = VERTEX_POINT ( 'NONE', #192 ) ;
#126 = DIRECTION ( 'NONE',  ( 0.000000000000000000, 0.000000000000000000, 1.000000000000000000 ) ) ;
#127 = VERTEX_POINT ( 'NONE', #241 ) ;
#128 = DIRECTION ( 'NONE',  ( 0.000000000000000000, 0.000000000000000000, 1.000000000000000000 ) ) ;
#129 = ORIENTED_EDGE ( 'NONE', *, *, #235, .F. ) ;
#130 = ORIENTED_EDGE ( 'NONE', *, *, #102, .F. ) ;
#131 = ORIENTED_EDGE ( 'NONE', *, *, #175, .F. ) ;
#132 = CARTESIAN_POINT ( 'NONE',  ( 6.349999999999998757, 6.349999999999998757, 6.349999999999999645 ) ) ;
#133 = DIRECTION ( 'NONE',  ( 0.000000000000000000, 1.000000000000000000, 0.000000000000000000 ) ) ;
#134 = CARTESIAN_POINT ( 'NONE',  ( 6.349999999999998757, 6.349999999999998757, -6.349999999999999645 ) ) ;
#135 = CALENDAR_DATE ( 2020, 22, 12 ) ;
#136 = CARTESIAN_POINT ( 'NONE',  ( -6.350000000000002309, 6.350000000000001421, 6.349999999999999645 ) ) ;
#137 = VECTOR ( 'NONE', #278, 999.9999999999998863 ) ;
#138 = CARTESIAN_POINT ( 'NONE',  ( 6.349999999999996980, 6.349999999999996980, 6.349999999999999645 ) ) ;
#139 = EDGE_CURVE ( 'NONE', #316, #292, #117, .T. ) ;
#140 = CC_DESIGN_APPROVAL ( #143, ( #287 ) ) ;
#141 = APPROVAL_STATUS ( 'not_yet_approved' ) ;
#142 = FACE_OUTER_BOUND ( 'NONE', #21, .T. ) ;
#143 = APPROVAL ( #205, 'UNSPECIFIED' ) ;
#144 = CARTESIAN_POINT ( 'NONE',  ( 6.349999999999996980, 6.349999999999996980, -6.349999999999999645 ) ) ;
#145 = CARTESIAN_POINT ( 'NONE',  ( -6.349999999999998757, -6.349999999999997868, 6.349999999999999645 ) ) ;
#146 = PERSON_AND_ORGANIZATION ( #95, #58 ) ;
#147 = DATE_AND_TIME ( #314, #245 ) ;
#148 = APPROVAL_ROLE ( '' ) ;
#149 = ORIENTED_EDGE ( 'NONE', *, *, #305, .T. ) ;
#150 = PRODUCT_DEFINITION_FORMATION_WITH_SPECIFIED_SOURCE ( 'ANY', '', #73, .NOT_KNOWN. ) ;
#151 = DIRECTION ( 'NONE',  ( -2.220446049250312588E-16, 1.000000000000000000, 0.000000000000000000 ) ) ;
#152 = ORIENTED_EDGE ( 'NONE', *, *, #139, .F. ) ;
#153 = APPLICATION_CONTEXT ( 'configuration controlled 3d designs of mechanical parts and assemblies' ) ;
#154 = CC_DESIGN_DATE_AND_TIME_ASSIGNMENT ( #30, #89, ( #88 ) ) ;
#155 = APPROVAL_ROLE ( '' ) ;
#156 = CARTESIAN_POINT ( 'NONE',  ( 6.349999999999996980, 6.349999999999996980, 6.349999999999999645 ) ) ;
#157 = ORIENTED_EDGE ( 'NONE', *, *, #305, .F. ) ;
#158 = AXIS2_PLACEMENT_3D ( 'NONE', #23, #133, #259 ) ;
#159 =( LENGTH_UNIT ( ) NAMED_UNIT ( * ) SI_UNIT ( .MILLI., .METRE. ) );
#160 = VERTEX_POINT ( 'NONE', #93 ) ;
#161 =( NAMED_UNIT ( * ) SI_UNIT ( $, .STERADIAN. ) SOLID_ANGLE_UNIT ( ) );
#162 = ADVANCED_FACE ( 'NONE', ( #181 ), #309, .F. ) ;
#163 = VERTEX_POINT ( 'NONE', #222 ) ;
#164 = CARTESIAN_POINT ( 'NONE',  ( 6.349999999999999645, -6.350000000000000533, -6.349999999999999645 ) ) ;
#165 = FACE_OUTER_BOUND ( 'NONE', #108, .T. ) ;
#166 = APPROVAL_DATE_TIME ( #216, #260 ) ;
#167 = CARTESIAN_POINT ( 'NONE',  ( -6.349999999999999645, -6.350000000000000533, 6.349999999999999645 ) ) ;
#168 = EDGE_CURVE ( 'NONE', #229, #125, #244, .T. ) ;
#169 = FACE_OUTER_BOUND ( 'NONE', #293, .T. ) ;
#170 = MANIFOLD_SOLID_BREP ( 'Í¹Ì¨-À', #195 ) ;
#171 = LINE ( 'NONE', #291, #56 ) ;
#172 = DIRECTION ( 'NONE',  ( -0.7071067811865475727, 0.7071067811865475727, 0.000000000000000000 ) ) ;
#173 = AXIS2_PLACEMENT_3D ( 'NONE', #92, #172, #284 ) ;
#174 = MANIFOLD_SOLID_BREP ( '¾µÏ', #90 ) ;
#175 = EDGE_CURVE ( 'NONE', #229, #100, #202, .T. ) ;
#176 = ORIENTED_EDGE ( 'NONE', *, *, #240, .T. ) ;
#177 = VECTOR ( 'NONE', #236, 1000.000000000000000 ) ;
#178 = DIRECTION ( 'NONE',  ( 0.000000000000000000, 0.000000000000000000, 1.000000000000000000 ) ) ;
#179 = ORIENTED_EDGE ( 'NONE', *, *, #240, .F. ) ;
#180 = APPLICATION_PROTOCOL_DEFINITION ( 'international standard', 'config_control_design', 1994, #153 ) ;
#181 = FACE_OUTER_BOUND ( 'NONE', #40, .T. ) ;
#182 = ORIENTED_EDGE ( 'NONE', *, *, #25, .F. ) ;
#183 = ORIENTED_EDGE ( 'NONE', *, *, #279, .T. ) ;
#184 = ADVANCED_FACE ( 'NONE', ( #71 ), #63, .T. ) ;
#185 = ORIENTED_EDGE ( 'NONE', *, *, #2, .F. ) ;
#186 = DIRECTION ( 'NONE',  ( 0.7071067811865475727, -0.7071067811865475727, 0.000000000000000000 ) ) ;
#187 = CARTESIAN_POINT ( 'NONE',  ( 6.349999999999998757, 6.349999999999998757, 6.349999999999999645 ) ) ;
#188 = EDGE_CURVE ( 'NONE', #210, #18, #269, .T. ) ;
#189 = LINE ( 'NONE', #136, #94 ) ;
#190 = LINE ( 'NONE', #87, #177 ) ;
#191 = LOCAL_TIME ( 11, 12, 28.00000000000000000, #263 ) ;
#192 = CARTESIAN_POINT ( 'NONE',  ( 6.349999999999998757, 6.349999999999998757, 6.349999999999999645 ) ) ;
#193 = CALENDAR_DATE ( 2020, 22, 12 ) ;
#194 = CC_DESIGN_PERSON_AND_ORGANIZATION_ASSIGNMENT ( #146, #286, ( #73 ) ) ;
#195 = CLOSED_SHELL ( 'NONE', ( #303, #109, #37, #225, #218 ) ) ;
#196 = CARTESIAN_POINT ( 'NONE',  ( -6.349999999999998757, -6.349999999999997868, -6.349999999999999645 ) ) ;
#197 = PLANE ( 'NONE',  #91 ) ;
#198 = CARTESIAN_POINT ( 'NONE',  ( -6.350000000000002309, 6.350000000000001421, 6.349999999999999645 ) ) ;
#199 = ADVANCED_FACE ( 'NONE', ( #169 ), #206, .F. ) ;
#200 = VECTOR ( 'NONE', #262, 1000.000000000000000 ) ;
#201 = PERSON_AND_ORGANIZATION ( #95, #58 ) ;
#202 = LINE ( 'NONE', #248, #66 ) ;
#203 = ORIENTED_EDGE ( 'NONE', *, *, #102, .T. ) ;
#204 = VECTOR ( 'NONE', #285, 1000.000000000000000 ) ;
#205 = APPROVAL_STATUS ( 'not_yet_approved' ) ;
#206 = PLANE ( 'NONE',  #55 ) ;
#207 = EDGE_LOOP ( 'NONE', ( #149, #20, #53 ) ) ;
#208 = CARTESIAN_POINT ( 'NONE',  ( 6.349999999999998757, 6.349999999999998757, 6.349999999999999645 ) ) ;
#209 = FACE_OUTER_BOUND ( 'NONE', #268, .T. ) ;
#210 = VERTEX_POINT ( 'NONE', #198 ) ;
#211 = PERSON_AND_ORGANIZATION ( #95, #58 ) ;
#212 =( NAMED_UNIT ( * ) PLANE_ANGLE_UNIT ( ) SI_UNIT ( $, .RADIAN. ) );
#213 = ORIENTED_EDGE ( 'NONE', *, *, #188, .T. ) ;
#214 = PLANE ( 'NONE',  #99 ) ;
#215 = DIRECTION ( 'NONE',  ( 6.829619984160658046E-17, -1.000000000000000000, 0.000000000000000000 ) ) ;
#216 = DATE_AND_TIME ( #7, #42 ) ;
#217 = DIRECTION ( 'NONE',  ( -0.7071067811865475727, -0.7071067811865475727, 0.000000000000000000 ) ) ;
#218 = ADVANCED_FACE ( 'NONE', ( #44 ), #230, .F. ) ;
#219 = SHAPE_DEFINITION_REPRESENTATION ( #124, #33 ) ;
#220 = CARTESIAN_POINT ( 'NONE',  ( 6.349999999999998757, 6.349999999999998757, 6.349999999999999645 ) ) ;
#221 = VECTOR ( 'NONE', #13, 1000.000000000000000 ) ;
#222 = CARTESIAN_POINT ( 'NONE',  ( 6.349999999999996980, 6.349999999999996980, -6.349999999999999645 ) ) ;
#223 = DIRECTION ( 'NONE',  ( -0.000000000000000000, 0.000000000000000000, 1.000000000000000000 ) ) ;
#224 = VECTOR ( 'NONE', #276, 1000.000000000000114 ) ;
#225 = ADVANCED_FACE ( 'NONE', ( #267 ), #197, .T. ) ;
#226 = VECTOR ( 'NONE', #9, 1000.000000000000000 ) ;
#227 = ADVANCED_FACE ( 'NONE', ( #142 ), #243, .F. ) ;
#228 = CALENDAR_DATE ( 2020, 22, 12 ) ;
#229 = VERTEX_POINT ( 'NONE', #64 ) ;
#230 = PLANE ( 'NONE',  #67 ) ;
#231 = ORIENTED_EDGE ( 'NONE', *, *, #118, .T. ) ;
#232 = LINE ( 'NONE', #208, #79 ) ;
#233 = ORIENTED_EDGE ( 'NONE', *, *, #175, .T. ) ;
#234 = ORIENTED_EDGE ( 'NONE', *, *, #250, .F. ) ;
#235 = EDGE_CURVE ( 'NONE', #316, #210, #171, .T. ) ;
#236 = DIRECTION ( 'NONE',  ( -0.000000000000000000, -0.000000000000000000, -1.000000000000000000 ) ) ;
#237 = LINE ( 'NONE', #167, #113 ) ;
#238 = DIRECTION ( 'NONE',  ( 0.000000000000000000, 0.000000000000000000, -1.000000000000000000 ) ) ;
#239 = AXIS2_PLACEMENT_3D ( 'NONE', #187, #110, #215 ) ;
#240 = EDGE_CURVE ( 'NONE', #105, #163, #74, .T. ) ;
#241 = CARTESIAN_POINT ( 'NONE',  ( 6.349999999999998757, 6.349999999999998757, -6.349999999999999645 ) ) ;
#242 = PERSON_AND_ORGANIZATION ( #95, #58 ) ;
#243 = PLANE ( 'NONE',  #290 ) ;
#244 = LINE ( 'NONE', #220, #221 ) ;
#245 = LOCAL_TIME ( 11, 12, 28.00000000000000000, #68 ) ;
#246 = COORDINATED_UNIVERSAL_TIME_OFFSET ( 8, 0, .AHEAD. ) ;
#247 = ORIENTED_EDGE ( 'NONE', *, *, #25, .T. ) ;
#248 = CARTESIAN_POINT ( 'NONE',  ( 6.349999999999999645, -6.350000000000000533, 6.349999999999999645 ) ) ;
#249 = ORIENTED_EDGE ( 'NONE', *, *, #313, .T. ) ;
#250 = EDGE_CURVE ( 'NONE', #18, #163, #65, .T. ) ;
#251 = FACE_OUTER_BOUND ( 'NONE', #72, .T. ) ;
#252 = ORIENTED_EDGE ( 'NONE', *, *, #313, .F. ) ;
#253 = AXIS2_PLACEMENT_3D ( 'NONE', #308, #126, #15 ) ;
#254 = ORIENTED_EDGE ( 'NONE', *, *, #123, .T. ) ;
#255 = EDGE_LOOP ( 'NONE', ( #182, #252, #130 ) ) ;
#256 = CC_DESIGN_PERSON_AND_ORGANIZATION_ASSIGNMENT ( #281, #300, ( #150 ) ) ;
#257 = FACE_OUTER_BOUND ( 'NONE', #14, .T. ) ;
#258 = CARTESIAN_POINT ( 'NONE',  ( 6.349999999999996980, 6.349999999999996980, -6.349999999999999645 ) ) ;
#259 = DIRECTION ( 'NONE',  ( 0.000000000000000000, -0.000000000000000000, 1.000000000000000000 ) ) ;
#260 = APPROVAL ( #277, 'UNSPECIFIED' ) ;
#261 = VECTOR ( 'NONE', #47, 1000.000000000000000 ) ;
#262 = DIRECTION ( 'NONE',  ( 1.000000000000000000, -2.903408047666378392E-16, 0.000000000000000000 ) ) ;
#263 = COORDINATED_UNIVERSAL_TIME_OFFSET ( 8, 0, .AHEAD. ) ;
#264 = DIRECTION ( 'NONE',  ( -2.220446049250312588E-16, 1.000000000000000000, 0.000000000000000000 ) ) ;
#265 = LINE ( 'NONE', #196, #54 ) ;
#266 = ORIENTED_EDGE ( 'NONE', *, *, #35, .F. ) ;
#267 = FACE_OUTER_BOUND ( 'NONE', #207, .T. ) ;
#268 = EDGE_LOOP ( 'NONE', ( #247, #78, #157, #289 ) ) ;
#269 = LINE ( 'NONE', #306, #200 ) ;
#270 = ORIENTED_EDGE ( 'NONE', *, *, #139, .T. ) ;
#271 = CC_DESIGN_PERSON_AND_ORGANIZATION_ASSIGNMENT ( #201, #98, ( #287 ) ) ;
#272 = DIRECTION ( 'NONE',  ( -1.000000000000000000, 2.903408047666378392E-16, 0.000000000000000000 ) ) ;
#273 = ORIENTED_EDGE ( 'NONE', *, *, #118, .F. ) ;
#274 = APPLICATION_PROTOCOL_DEFINITION ( 'international standard', 'config_control_design', 1994, #288 ) ;
#275 = AXIS2_PLACEMENT_3D ( 'NONE', #22, #128, #77 ) ;
#276 = DIRECTION ( 'NONE',  ( -0.7071067811865474617, -0.7071067811865474617, 0.000000000000000000 ) ) ;
#277 = APPROVAL_STATUS ( 'not_yet_approved' ) ;
#278 = DIRECTION ( 'NONE',  ( -0.7071067811865475727, -0.7071067811865475727, 0.000000000000000000 ) ) ;
#279 = EDGE_CURVE ( 'NONE', #292, #105, #265, .T. ) ;
#280 = PLANE ( 'NONE',  #158 ) ;
#281 = PERSON_AND_ORGANIZATION ( #95, #58 ) ;
#282 = ADVANCED_FACE ( 'NONE', ( #251 ), #214, .F. ) ;
#283 = DIRECTION ( 'NONE',  ( -0.000000000000000000, 0.000000000000000000, 1.000000000000000000 ) ) ;
#284 = DIRECTION ( 'NONE',  ( 0.7071067811865475727, 0.7071067811865475727, 0.000000000000000000 ) ) ;
#285 = DIRECTION ( 'NONE',  ( 1.000000000000000000, -2.903408047666378392E-16, 0.000000000000000000 ) ) ;
#286 = PERSON_AND_ORGANIZATION_ROLE ( 'design_owner' ) ;
#287 = PRODUCT_DEFINITION ( 'UNKNOWN', '', #150, #299 ) ;
#288 = APPLICATION_CONTEXT ( 'configuration controlled 3d designs of mechanical parts and assemblies' ) ;
#289 = ORIENTED_EDGE ( 'NONE', *, *, #12, .T. ) ;
#290 = AXIS2_PLACEMENT_3D ( 'NONE', #315, #120, #151 ) ;
#291 = CARTESIAN_POINT ( 'NONE',  ( -6.349999999999998757, -6.349999999999997868, 6.349999999999999645 ) ) ;
#292 = VERTEX_POINT ( 'NONE', #104 ) ;
#293 = EDGE_LOOP ( 'NONE', ( #48, #152, #321, #231 ) ) ;
#294 = CC_DESIGN_PERSON_AND_ORGANIZATION_ASSIGNMENT ( #59, #116, ( #150 ) ) ;
#295 = DIRECTION ( 'NONE',  ( -0.7071067811865474617, -0.7071067811865474617, 0.000000000000000000 ) ) ;
#296 = LINE ( 'NONE', #317, #261 ) ;
#297 = DIRECTION ( 'NONE',  ( -0.000000000000000000, -0.000000000000000000, -1.000000000000000000 ) ) ;
#298 = CARTESIAN_POINT ( 'NONE',  ( -6.349999999999999645, -6.350000000000000533, 6.349999999999999645 ) ) ;
#299 = DESIGN_CONTEXT ( 'detailed design', #153, 'design' ) ;
#300 = PERSON_AND_ORGANIZATION_ROLE ( 'creator' ) ;
#301 = COORDINATED_UNIVERSAL_TIME_OFFSET ( 8, 0, .AHEAD. ) ;
#302 = CC_DESIGN_APPROVAL ( #61, ( #88 ) ) ;
#303 = ADVANCED_FACE ( 'NONE', ( #209 ), #101, .F. ) ;
#304 = DIRECTION ( 'NONE',  ( 1.000000000000000000, 0.000000000000000000, 0.000000000000000000 ) ) ;
#305 = EDGE_CURVE ( 'NONE', #125, #80, #232, .T. ) ;
#306 = CARTESIAN_POINT ( 'NONE',  ( 6.349999999999996980, 6.349999999999996980, 6.349999999999999645 ) ) ;
#307 = APPROVAL_PERSON_ORGANIZATION ( #242, #61, #6 ) ;
#308 = CARTESIAN_POINT ( 'NONE',  ( 0.000000000000000000, 0.000000000000000000, 6.349999999999999645 ) ) ;
#309 = PLANE ( 'NONE',  #173 ) ;
#310 = VECTOR ( 'NONE', #84, 1000.000000000000000 ) ;
#311 = PERSON_AND_ORGANIZATION ( #95, #58 ) ;
#312 = CC_DESIGN_APPROVAL ( #260, ( #150 ) ) ;
#313 = EDGE_CURVE ( 'NONE', #100, #127, #296, .T. ) ;
#314 = CALENDAR_DATE ( 2020, 22, 12 ) ;
#315 = CARTESIAN_POINT ( 'NONE',  ( 0.000000000000000000, 0.000000000000000000, -6.349999999999999645 ) ) ;
#316 = VERTEX_POINT ( 'NONE', #320 ) ;
#317 = CARTESIAN_POINT ( 'NONE',  ( 6.349999999999998757, 6.349999999999998757, -6.349999999999999645 ) ) ;
#318 = PRODUCT_RELATED_PRODUCT_CATEGORY ( 'detail', '', ( #73 ) ) ;
#319 = ORIENTED_EDGE ( 'NONE', *, *, #51, .T. ) ;
#320 = CARTESIAN_POINT ( 'NONE',  ( -6.349999999999998757, -6.349999999999997868, 6.349999999999999645 ) ) ;
#321 = ORIENTED_EDGE ( 'NONE', *, *, #235, .T. ) ;
ENDSEC;
END-ISO-10303-21;
